  0
SECTION
  2
HEADER
  9
$ACADVER
  1
AC1015
  9
$ACADMAINTVER
 70
     6
  9
$DWGCODEPAGE
  3
ANSI_1254
  9
$INSBASE
 10
0.0
 20
0.0
 30
0.0
  9
$EXTMIN
 10
0.0
 20
0.0
 30
0.0
  9
$EXTMAX
 10
279.4
 20
215.9
 30
0.0
  9
$LIMMIN
 10
0.0
 20
0.0
  9
$LIMMAX
 10
279.4
 20
215.9
  9
$ORTHOMODE
 70
     0
  9
$REGENMODE
 70
     1
  9
$FILLMODE
 70
     1
  9
$QTEXTMODE
 70
     0
  9
$MIRRTEXT
 70
     1
  9
$LTSCALE
 40
1.0
  9
$ATTMODE
 70
     1
  9
$TEXTSIZE
 40
3.5
  9
$TRACEWID
 40
1.0
  9
$TEXTSTYLE
  7
Standard
  9
$CLAYER
  8
0
  9
$CELTYPE
  6
ByLayer
  9
$CECOLOR
 62
   256
  9
$CELTSCALE
 40
1.0
  9
$DISPSILH
 70
     0
  9
$DIMSCALE
 40
1.0
  9
$DIMASZ
 40
3.5
  9
$DIMEXO
 40
1.0
  9
$DIMDLI
 40
3.75
  9
$DIMRND
 40
0.0
  9
$DIMDLE
 40
0.0
  9
$DIMEXE
 40
1.0
  9
$DIMTP
 40
0.0
  9
$DIMTM
 40
0.0
  9
$DIMTXT
 40
3.5
  9
$DIMCEN
 40
2.5
  9
$DIMTSZ
 40
0.0
  9
$DIMTOL
 70
     0
  9
$DIMLIM
 70
     0
  9
$DIMTIH
 70
     1
  9
$DIMTOH
 70
     1
  9
$DIMSE1
 70
     0
  9
$DIMSE2
 70
     0
  9
$DIMTAD
 70
     1
  9
$DIMZIN
 70
     0
  9
$DIMBLK
  1

  9
$DIMASO
 70
     1
  9
$DIMSHO
 70
     1
  9
$DIMPOST
  1

  9
$DIMAPOST
  1

  9
$DIMALT
 70
     0
  9
$DIMALTD
 70
     3
  9
$DIMALTF
 40
0.0393700787
  9
$DIMLFAC
 40
1.0
  9
$DIMTOFL
 70
     1
  9
$DIMTVP
 40
0.0
  9
$DIMTIX
 70
     0
  9
$DIMSOXD
 70
     0
  9
$DIMSAH
 70
     0
  9
$DIMBLK1
  1

  9
$DIMBLK2
  1

  9
$DIMSTYLE
  2
ISO-25
  9
$DIMCLRD
 70
     0
  9
$DIMCLRE
 70
     0
  9
$DIMCLRT
 70
     0
  9
$DIMTFAC
 40
1.0
  9
$DIMGAP
 40
1.524
  9
$DIMJUST
 70
     0
  9
$DIMSD1
 70
     0
  9
$DIMSD2
 70
     0
  9
$DIMTOLJ
 70
     0
  9
$DIMTZIN
 70
     0
  9
$DIMALTZ
 70
     0
  9
$DIMALTTZ
 70
     0
  9
$DIMUPT
 70
     0
  9
$DIMDEC
 70
     2
  9
$DIMTDEC
 70
     2
  9
$DIMALTU
 70
     2
  9
$DIMALTTD
 70
     3
  9
$DIMTXSTY
  7
Standard
  9
$DIMAUNIT
 70
     0
  9
$DIMADEC
 70
     2
  9
$DIMALTRND
 40
0.0
  9
$DIMAZIN
 70
     0
  9
$DIMDSEP
 70
    44
  9
$DIMATFIT
 70
     3
  9
$DIMFRAC
 70
     0
  9
$DIMLDRBLK
  1

  9
$DIMLUNIT
 70
     2
  9
$DIMLWD
 70
    -2
  9
$DIMLWE
 70
    -2
  9
$DIMTMOVE
 70
     0
  9
$LUNITS
 70
     2
  9
$LUPREC
 70
     2
  9
$SKETCHINC
 40
1.0
  9
$FILLETRAD
 40
10.0
  9
$AUNITS
 70
     0
  9
$AUPREC
 70
     2
  9
$MENU
  1
.
  9
$ELEVATION
 40
0.0
  9
$PELEVATION
 40
0.0
  9
$THICKNESS
 40
0.0
  9
$LIMCHECK
 70
     0
  9
$CHAMFERA
 40
0.0
  9
$CHAMFERB
 40
0.0
  9
$CHAMFERC
 40
0.0
  9
$CHAMFERD
 40
0.0
  9
$SKPOLY
 70
     0
  9
$TDCREATE
 40
2458985.69954662
  9
$TDUCREATE
 40
2458985.57454662
  9
$TDUPDATE
 40
2458985.699546887
  9
$TDUUPDATE
 40
2458985.574546887
  9
$TDINDWG
 40
0.0000000116
  9
$TDUSRTIMER
 40
0.0000000116
  9
$USRTIMER
 70
     1
  9
$ANGBASE
 50
0.0
  9
$ANGDIR
 70
     0
  9
$PDMODE
 70
     0
  9
$PDSIZE
 40
-1.0
  9
$PLINEWID
 40
0.0
  9
$SPLFRAME
 70
     0
  9
$SPLINETYPE
 70
     6
  9
$SPLINESEGS
 70
     8
  9
$HANDSEED
  5
F1
  9
$SURFTAB1
 70
     6
  9
$SURFTAB2
 70
     6
  9
$SURFTYPE
 70
     6
  9
$SURFU
 70
     6
  9
$SURFV
 70
     6
  9
$UCSBASE
  2

  9
$UCSNAME
  2

  9
$UCSORG
 10
0.0
 20
0.0
 30
0.0
  9
$UCSXDIR
 10
1.0
 20
0.0
 30
0.0
  9
$UCSYDIR
 10
0.0
 20
1.0
 30
0.0
  9
$UCSORTHOREF
  2

  9
$UCSORTHOVIEW
 70
     0
  9
$UCSORGTOP
 10
0.0
 20
0.0
 30
0.0
  9
$UCSORGBOTTOM
 10
0.0
 20
0.0
 30
0.0
  9
$UCSORGLEFT
 10
0.0
 20
0.0
 30
0.0
  9
$UCSORGRIGHT
 10
0.0
 20
0.0
 30
0.0
  9
$UCSORGFRONT
 10
0.0
 20
0.0
 30
0.0
  9
$UCSORGBACK
 10
0.0
 20
0.0
 30
0.0
  9
$PUCSBASE
  2

  9
$PUCSNAME
  2

  9
$PUCSORG
 10
0.0
 20
0.0
 30
0.0
  9
$PUCSXDIR
 10
1.0
 20
0.0
 30
0.0
  9
$PUCSYDIR
 10
0.0
 20
1.0
 30
0.0
  9
$PUCSORTHOREF
  2

  9
$PUCSORTHOVIEW
 70
     0
  9
$PUCSORGTOP
 10
0.0
 20
0.0
 30
0.0
  9
$PUCSORGBOTTOM
 10
0.0
 20
0.0
 30
0.0
  9
$PUCSORGLEFT
 10
0.0
 20
0.0
 30
0.0
  9
$PUCSORGRIGHT
 10
0.0
 20
0.0
 30
0.0
  9
$PUCSORGFRONT
 10
0.0
 20
0.0
 30
0.0
  9
$PUCSORGBACK
 10
0.0
 20
0.0
 30
0.0
  9
$USERI1
 70
     0
  9
$USERI2
 70
     0
  9
$USERI3
 70
     0
  9
$USERI4
 70
     0
  9
$USERI5
 70
     0
  9
$USERR1
 40
0.0
  9
$USERR2
 40
0.0
  9
$USERR3
 40
0.0
  9
$USERR4
 40
0.0
  9
$USERR5
 40
0.0
  9
$WORLDVIEW
 70
     1
  9
$SHADEDGE
 70
     3
  9
$SHADEDIF
 70
    70
  9
$TILEMODE
 70
     1
  9
$MAXACTVP
 70
    64
  9
$PINSBASE
 10
0.0
 20
0.0
 30
0.0
  9
$PLIMCHECK
 70
     0
  9
$PEXTMIN
 10
1.0000000000E+20
 20
1.0000000000E+20
 30
1.0000000000E+20
  9
$PEXTMAX
 10
-1.0000000000E+20
 20
-1.0000000000E+20
 30
-1.0000000000E+20
  9
$PLIMMIN
 10
0.0
 20
0.0
  9
$PLIMMAX
 10
420.0
 20
297.0
  9
$UNITMODE
 70
     0
  9
$VISRETAIN
 70
     1
  9
$PLINEGEN
 70
     0
  9
$PSLTSCALE
 70
     1
  9
$TREEDEPTH
 70
  3020
  9
$CMLSTYLE
  2
Standard
  9
$CMLJUST
 70
     0
  9
$CMLSCALE
 40
20.0
  9
$PROXYGRAPHICS
 70
     1
  9
$MEASUREMENT
 70
     1
  9
$CELWEIGHT
370
    -1
  9
$ENDCAPS
280
     0
  9
$JOINSTYLE
280
     0
  9
$LWDISPLAY
290
     1
  9
$INSUNITS
 70
     4
  9
$HYPERLINKBASE
  1

  9
$STYLESHEET
  1

  9
$XEDIT
290
     1
  9
$CEPSNTYPE
380
     0
  9
$PSTYLEMODE
290
     1
  9
$FINGERPRINTGUID
  2
{7509208c-2cb2-4e82-b2ef-466edefa9533}
  9
$VERSIONGUID
  2
{FAEB1C32-E019-11D5-929B-00C0DF256EC4}
  9
$EXTNAMES
290
     1
  9
$PSVPSCALE
 40
0.0
  9
$OLESTARTUP
290
     0
  0
ENDSEC
  0
SECTION
  2
CLASSES
  0
CLASS
  1
ACDBDICTIONARYWDFLT
  2
AcDbDictionaryWithDefault
  3
ObjectDBX Classes
 90
        0
280
     0
281
     0
  0
CLASS
  1
VISUALSTYLE
  2
AcDbVisualStyle
  3
ObjectDBX Classes
 90
     4095
280
     0
281
     0
  0
CLASS
  1
MATERIAL
  2
AcDbMaterial
  3
ObjectDBX Classes
 90
     1153
280
     0
281
     0
  0
CLASS
  1
SCALE
  2
AcDbScale
  3
ObjectDBX Classes
 90
     1153
280
     0
281
     0
  0
CLASS
  1
TABLESTYLE
  2
AcDbTableStyle
  3
ObjectDBX Classes
 90
     4095
280
     0
281
     0
  0
CLASS
  1
MLEADERSTYLE
  2
AcDbMLeaderStyle
  3
ACDB_MLEADERSTYLE_CLASS
 90
     4095
280
     0
281
     0
  0
CLASS
  1
SUN
  2
AcDbSun
  3
SCENEOE
 90
     1153
280
     0
281
     0
  0
CLASS
  1
ACDBPLACEHOLDER
  2
AcDbPlaceHolder
  3
ObjectDBX Classes
 90
        0
280
     0
281
     0
  0
CLASS
  1
LAYOUT
  2
AcDbLayout
  3
ObjectDBX Classes
 90
        0
280
     0
281
     0
  0
ENDSEC
  0
SECTION
  2
TABLES
  0
TABLE
  2
VPORT
  5
8
330
0
100
AcDbSymbolTable
 70
     1
  0
VPORT
  5
29
330
8
100
AcDbSymbolTableRecord
100
AcDbViewportTableRecord
  2
*Active
 70
     0
 10
0.0
 20
0.0
 11
1.0
 21
1.0
 12
139.7
 22
107.95
 13
0.0
 23
0.0
 14
10.0
 24
10.0
 15
10.0
 25
10.0
 16
0.0
 26
0.0
 36
1.0
 17
0.0
 27
0.0
 37
0.0
 40
215.9
 41
1.2941176471
 42
50.0
 43
0.0
 44
0.0
 50
0.0
 51
0.0
 71
     0
 72
  2000
 73
     1
 74
     3
 75
     0
 76
     0
 77
     0
 78
     0
281
     0
 65
     1
110
0.0
120
0.0
130
0.0
111
1.0
121
0.0
131
0.0
112
0.0
122
1.0
132
0.0
 79
     0
146
0.0
  0
ENDTAB
  0
TABLE
  2
LTYPE
  5
5
330
0
100
AcDbSymbolTable
 70
     6
  0
LTYPE
  5
14
330
5
100
AcDbSymbolTableRecord
100
AcDbLinetypeTableRecord
  2
ByBlock
 70
     0
  3

 72
    65
 73
     0
 40
0.0
  0
LTYPE
  5
15
330
5
100
AcDbSymbolTableRecord
100
AcDbLinetypeTableRecord
  2
ByLayer
 70
     0
  3

 72
    65
 73
     0
 40
0.0
  0
LTYPE
  5
16
330
5
100
AcDbSymbolTableRecord
100
AcDbLinetypeTableRecord
  2
Continuous
 70
     0
  3
Solid line
 72
    65
 73
     0
 40
0.0
  0
LTYPE
  5
6E
330
5
100
AcDbSymbolTableRecord
100
AcDbLinetypeTableRecord
  2
HIDDEN
 70
     0
  3
Hidden __ __ __ __ __ __ __ __ __ __ __ __ __ __
 72
    65
 73
     2
 40
1.905
 49
1.27
 74
     0
 49
-0.635
 74
     0
  0
LTYPE
  5
6F
330
5
100
AcDbSymbolTableRecord
100
AcDbLinetypeTableRecord
  2
PHANTOM
 70
     0
  3
Phantom ______  __  __  ______  __  __  ______
 72
    65
 73
     6
 40
12.7
 49
6.35
 74
     0
 49
-1.27
 74
     0
 49
1.27
 74
     0
 49
-1.27
 74
     0
 49
1.27
 74
     0
 49
-1.27
 74
     0
  0
LTYPE
  5
70
330
5
100
AcDbSymbolTableRecord
100
AcDbLinetypeTableRecord
  2
CENTER
 70
     0
  3
Center ____ _ ____ _ ____ _ ____ _ ____ _ ____
 72
    65
 73
     4
 40
10.16
 49
6.35
 74
     0
 49
-1.27
 74
     0
 49
1.27
 74
     0
 49
-1.27
 74
     0
  0
LTYPE
  5
71
330
5
100
AcDbSymbolTableRecord
100
AcDbLinetypeTableRecord
  2
CENTERX2
 70
     0
  3
Center (2x) ________  __  ________  __  _____
 72
    65
 73
     4
 40
20.32
 49
12.7
 74
     0
 49
-2.54
 74
     0
 49
2.54
 74
     0
 49
-2.54
 74
     0
  0
LTYPE
  5
72
330
5
100
AcDbSymbolTableRecord
100
AcDbLinetypeTableRecord
  2
DOT2
 70
     0
  3
Dot (.5x) ........................................
 72
    65
 73
     2
 40
0.635
 49
0.0
 74
     0
 49
-0.635
 74
     0
  0
ENDTAB
  0
TABLE
  2
LAYER
  5
2
330
0
100
AcDbSymbolTable
 70
    17
  0
LAYER
  5
10
330
2
100
AcDbSymbolTableRecord
100
AcDbLayerTableRecord
  2
0
 70
     0
 62
     7
  6
Continuous
370
    -3
390
F
  0
LAYER
  5
73
330
2
100
AcDbSymbolTableRecord
100
AcDbLayerTableRecord
  2
FORMAT
 70
     0
 62
     7
  6
Continuous
370
    -3
390
F
  0
LAYER
  5
74
330
2
100
AcDbSymbolTableRecord
100
AcDbLayerTableRecord
  2
YARDIMCI_GEOMETRI
 70
     0
 62
    -6
  6
Continuous
290
     0
370
    -3
390
F
  0
LAYER
  5
75
330
2
100
AcDbSymbolTableRecord
100
AcDbLayerTableRecord
  2
SAYFA_CERCEVESI
 70
     0
 62
     7
  6
Continuous
370
    25
390
F
  0
LAYER
  5
76
330
2
100
AcDbSymbolTableRecord
100
AcDbLayerTableRecord
  2
ANTET
 70
     0
 62
     7
  6
Continuous
370
    -3
390
F
  0
LAYER
  5
77
330
2
100
AcDbSymbolTableRecord
100
AcDbLayerTableRecord
  2
OLCU
 70
     0
 62
   150
  6
Continuous
370
    -3
390
F
  0
LAYER
  5
78
330
2
100
AcDbSymbolTableRecord
100
AcDbLayerTableRecord
  2
METIN
 70
     0
 62
    96
  6
Continuous
370
    -3
390
F
  0
LAYER
  5
79
330
2
100
AcDbSymbolTableRecord
100
AcDbLayerTableRecord
  2
BALON
 70
     0
 62
     5
  6
Continuous
370
    -3
390
F
  0
LAYER
  5
7A
330
2
100
AcDbSymbolTableRecord
100
AcDbLayerTableRecord
  2
VURGU
 70
     0
 62
     7
  6
Continuous
370
    -3
390
F
  0
LAYER
  5
7B
330
2
100
AcDbSymbolTableRecord
100
AcDbLayerTableRecord
  2
SILIK
 70
     0
 62
     7
  6
Continuous
370
    -3
390
F
  0
LAYER
  5
7C
330
2
100
AcDbSymbolTableRecord
100
AcDbLayerTableRecord
  2
MODEL
 70
     0
 62
     7
  6
Continuous
370
    -3
390
F
  0
LAYER
  5
7D
330
2
100
AcDbSymbolTableRecord
100
AcDbLayerTableRecord
  2
DETAYLANDıRMA
 70
     0
 62
   190
  6
Continuous
370
    -3
390
F
  0
LAYER
  5
7E
330
2
100
AcDbSymbolTableRecord
100
AcDbLayerTableRecord
  2
TOLERANS
 70
     0
 62
   230
  6
Continuous
370
    -3
390
F
  0
LAYER
  5
7F
330
2
100
AcDbSymbolTableRecord
100
AcDbLayerTableRecord
  2
MERKEZ_CIZGILERI
 70
     0
 62
    30
  6
Continuous
370
    -3
390
F
  0
LAYER
  5
80
330
2
100
AcDbSymbolTableRecord
100
AcDbLayerTableRecord
  2
KESIT-DETAY_CIZGILERI
 70
     0
 62
     7
  6
Continuous
370
    -3
390
F
  0
LAYER
  5
81
330
2
100
AcDbSymbolTableRecord
100
AcDbLayerTableRecord
  2
\U+041E\U+0421\U+0415\U+0412\U+042B\U+0415
 70
     0
 62
     7
  6
Continuous
370
    -3
390
F
  0
LAYER
  5
82
330
2
100
AcDbSymbolTableRecord
100
AcDbLayerTableRecord
  2
\U+0412\U+041E\U+0414\U+042F\U+041D\U+042B\U+0415_\U+0417\U+041D\U+0410\U+041A\U+0418
 70
     0
 62
    11
  6
Continuous
370
    -3
390
F
  0
ENDTAB
  0
TABLE
  2
STYLE
  5
3
330
0
100
AcDbSymbolTable
 70
     1
  0
STYLE
  5
11
330
3
100
AcDbSymbolTableRecord
100
AcDbTextStyleTableRecord
  2
Standard
 70
     0
 40
0.0
 41
1.0
 50
0.0
 71
     0
 42
3.5
  3
txt
  4

  0
ENDTAB
  0
TABLE
  2
VIEW
  5
6
330
0
100
AcDbSymbolTable
 70
     0
  0
ENDTAB
  0
TABLE
  2
UCS
  5
7
330
0
100
AcDbSymbolTable
 70
     0
  0
ENDTAB
  0
TABLE
  2
APPID
  5
9
330
0
100
AcDbSymbolTable
 70
     1
  0
APPID
  5
12
330
9
100
AcDbSymbolTableRecord
100
AcDbRegAppTableRecord
  2
ACAD
 70
     0
  0
ENDTAB
  0
TABLE
  2
DIMSTYLE
  5
A
330
0
100
AcDbSymbolTable
 70
     1
100
AcDbDimStyleTable
  0
DIMSTYLE
105
27
330
A
100
AcDbSymbolTableRecord
100
AcDbDimStyleTableRecord
  2
ISO-25
 70
     0
 41
2.5
 42
0.625
 43
3.75
 44
1.25
 73
     0
 74
     0
 77
     1
 78
     8
140
2.5
141
2.5
143
0.0393700787
147
0.625
171
     3
172
     1
178
     0
271
     2
272
     2
274
     3
278
    44
283
     0
284
     8
340
11
  0
ENDTAB
  0
TABLE
  2
BLOCK_RECORD
  5
1
330
0
100
AcDbSymbolTable
 70
     2
  0
BLOCK_RECORD
  5
1F
330
1
100
AcDbSymbolTableRecord
100
AcDbBlockTableRecord
  2
*Model_Space
340
22
  0
BLOCK_RECORD
  5
1B
330
1
100
AcDbSymbolTableRecord
100
AcDbBlockTableRecord
  2
*Paper_Space
340
1E
  0
BLOCK_RECORD
  5
23
330
1
100
AcDbSymbolTableRecord
100
AcDbBlockTableRecord
  2
*Paper_Space0
340
26
  0
BLOCK_RECORD
  5
88
330
1
100
AcDbSymbolTableRecord
100
AcDbBlockTableRecord
  2
SW_CENTERMARKSYMBOL_0
340
0
102
{BLKREFS
331
93
102
}
  0
ENDTAB
  0
ENDSEC
  0
SECTION
  2
BLOCKS
  0
BLOCK
  5
20
330
1F
100
AcDbEntity
  8
0
100
AcDbBlockBegin
  2
*Model_Space
 70
     0
 10
0.0
 20
0.0
 30
0.0
  3
*Model_Space
  1

  0
ENDBLK
  5
21
330
1F
100
AcDbEntity
  8
0
100
AcDbBlockEnd
  0
BLOCK
  5
1C
330
1B
100
AcDbEntity
 67
     1
  8
0
100
AcDbBlockBegin
  2
*Paper_Space
 70
     0
 10
0.0
 20
0.0
 30
0.0
  3
*Paper_Space
  1

  0
ENDBLK
  5
1D
330
1B
100
AcDbEntity
 67
     1
  8
0
100
AcDbBlockEnd
  0
BLOCK
  5
24
330
23
100
AcDbEntity
  8
0
100
AcDbBlockBegin
  2
*Paper_Space0
 70
     0
 10
0.0
 20
0.0
 30
0.0
  3
*Paper_Space0
  1

  0
ENDBLK
  5
25
330
23
100
AcDbEntity
  8
0
100
AcDbBlockEnd
  0
BLOCK
  5
89
330
88
100
AcDbEntity
  8
0
100
AcDbBlockBegin
  2
SW_CENTERMARKSYMBOL_0
 70
     0
 10
0.0
 20
0.0
 30
0.0
  3
SW_CENTERMARKSYMBOL_0
  1

  0
LINE
  5
8B
330
88
100
AcDbEntity
  8
FORMAT
 62
     0
100
AcDbLine
 10
0.0
 20
0.0
 30
0.0
 11
0.0
 21
2.5
 31
0.0
  0
LINE
  5
8C
330
88
100
AcDbEntity
  8
FORMAT
 62
     0
100
AcDbLine
 10
0.0
 20
0.0
 30
0.0
 11
-2.5
 21
0.0
 31
0.0
  0
LINE
  5
8D
330
88
100
AcDbEntity
  8
FORMAT
 62
     0
100
AcDbLine
 10
0.0
 20
0.0
 30
0.0
 11
0.0
 21
-2.5
 31
0.0
  0
LINE
  5
8E
330
88
100
AcDbEntity
  8
FORMAT
 62
     0
100
AcDbLine
 10
0.0
 20
0.0
 30
0.0
 11
2.5
 21
0.0
 31
0.0
  0
LINE
  5
8F
330
88
100
AcDbEntity
  8
FORMAT
 62
     0
100
AcDbLine
 10
0.0
 20
5.0
 30
0.0
 11
0.0
 21
115.0
 31
0.0
  0
LINE
  5
90
330
88
100
AcDbEntity
  8
FORMAT
 62
     0
100
AcDbLine
 10
-5.0
 20
0.0
 30
0.0
 11
-115.0
 21
0.0
 31
0.0
  0
LINE
  5
91
330
88
100
AcDbEntity
  8
FORMAT
 62
     0
100
AcDbLine
 10
0.0
 20
-5.0
 30
0.0
 11
0.0
 21
-115.0
 31
0.0
  0
LINE
  5
92
330
88
100
AcDbEntity
  8
FORMAT
 62
     0
100
AcDbLine
 10
5.0
 20
0.0
 30
0.0
 11
115.0
 21
0.0
 31
0.0
  0
ENDBLK
  5
8A
330
88
100
AcDbEntity
  8
0
100
AcDbBlockEnd
  0
ENDSEC
  0
SECTION
  2
ENTITIES
  0
CIRCLE
  5
83
330
1F
100
AcDbEntity
  8
0
  6
Continuous
 62
     7
370
    25
100
AcDbCircle
 10
139.395004093
 20
107.5851680021
 30
0.0
 40
112.5
  0
CIRCLE
  5
84
330
1F
100
AcDbEntity
  8
0
  6
Continuous
 62
     7
370
    25
100
AcDbCircle
 10
139.395004093
 20
107.5851680021
 30
0.0
 40
92.0
  0
CIRCLE
  5
85
330
1F
100
AcDbEntity
  8
0
  6
Continuous
 62
     7
370
    25
100
AcDbCircle
 10
139.395004093
 20
107.5851680021
 30
0.0
 40
91.62773478102841
  0
CIRCLE
  5
86
330
1F
100
AcDbEntity
  8
0
  6
Continuous
 62
     7
370
    25
100
AcDbCircle
 10
139.395004093
 20
107.5851680021
 30
0.0
 40
73.97226521897163
  0
CIRCLE
  5
87
330
1F
100
AcDbEntity
  8
0
  6
Continuous
 62
     7
370
    25
100
AcDbCircle
 10
139.395004093
 20
107.5851680021
 30
0.0
 40
73.60000000000001
  0
INSERT
  5
93
330
1F
100
AcDbEntity
  8
FORMAT
 62
     7
100
AcDbBlockReference
  2
SW_CENTERMARKSYMBOL_0
 10
139.395004093
 20
107.5851680021
 30
0.0
  0
ARC
  5
94
330
1F
100
AcDbEntity
  8
0
  6
Continuous
 62
     7
370
    25
100
AcDbCircle
 10
-183.3892901383
 20
218.0851680021
 30
0.0
 40
2.000000000000028
100
AcDbArc
 50
67.7509763428
 51
90.0
  0
ARC
  5
95
330
1F
100
AcDbEntity
  8
0
  6
Continuous
 62
     7
370
    25
100
AcDbCircle
 10
-183.3892901383
 20
-2.9148319979
 30
0.0
 40
2.000000000000024
100
AcDbArc
 50
270.0
 51
292.2490236572
  0
LINE
  5
96
330
1F
100
AcDbEntity
  8
0
  6
Continuous
 62
     7
370
    25
100
AcDbLine
 10
-183.3892898785
 20
220.0851650219
 30
0.0
 11
-302.9960101621
 21
220.0851650219
 31
0.0
  0
LINE
  5
97
330
1F
100
AcDbEntity
  8
0
  6
Continuous
 62
     7
370
    25
100
AcDbLine
 10
-302.9960101621
 20
-4.9148290177
 30
0.0
 11
-183.3892898785
 21
-4.9148290177
 31
0.0
  0
LINE
  5
98
330
1F
100
AcDbEntity
  8
0
  6
Continuous
 62
     7
370
    25
100
AcDbLine
 10
-182.6320240425
 20
-4.7659291644
 30
0.0
 11
-128.3600112574
 21
17.4362645726
 31
0.0
  0
LINE
  5
99
330
1F
100
AcDbEntity
  8
0
  6
Continuous
 62
     7
370
    25
100
AcDbLine
 10
-128.3600112574
 20
197.7340714316
 30
0.0
 11
-182.6320240425
 21
219.9362651687
 31
0.0
  0
ARC
  5
9A
330
1F
100
AcDbEntity
  8
0
  6
Continuous
 62
     7
370
    25
100
AcDbCircle
 10
-127.6027440725
 20
199.5851680021
 30
0.0
 40
2.0
100
AcDbArc
 50
247.7509763428
 51
270.0
  0
ARC
  5
9B
330
1F
100
AcDbEntity
  8
0
  6
Continuous
 62
     7
370
    25
100
AcDbCircle
 10
-127.6027440725
 20
15.5851680021
 30
0.0
 40
1.999999999999992
100
AcDbArc
 50
90.0
 51
112.2490236572
  0
LINE
  5
9C
330
1F
100
AcDbEntity
  8
0
  6
Continuous
 62
     7
370
    25
100
AcDbLine
 10
-22.9960238712
 20
197.5851715784
 30
0.0
 11
-127.6027454214
 21
197.5851715784
 31
0.0
  0
LINE
  5
9D
330
1F
100
AcDbEntity
  8
0
  6
Continuous
 62
     7
370
    25
100
AcDbLine
 10
-127.6027454214
 20
17.5851644258
 30
0.0
 11
-22.9960238712
 21
17.5851644258
 31
0.0
  0
LINE
  5
9E
330
1F
100
AcDbEntity
  8
0
  6
Continuous
 62
     7
370
    25
100
AcDbLine
 10
-302.9960101621
 20
220.0851650219
 30
0.0
 11
-302.9960101621
 21
-4.9148290177
 31
0.0
  0
LINE
  5
9F
330
1F
100
AcDbEntity
  8
0
  6
Continuous
 62
     7
370
    25
100
AcDbLine
 10
-22.9960238712
 20
197.5851715784
 30
0.0
 11
-22.9960238712
 21
17.5851644258
 31
0.0
  0
LINE
  5
A0
330
1F
100
AcDbEntity
  8
0
  6
Continuous
 62
     1
370
    25
100
AcDbLine
 10
-182.6320240425
 20
219.9362651687
 30
0.0
 11
-182.6320240425
 21
-4.7659291644
 31
0.0
  0
LINE
  5
A1
330
1F
100
AcDbEntity
  8
0
  6
Continuous
 62
     1
370
    25
100
AcDbLine
 10
-183.3892898785
 20
220.0851650219
 30
0.0
 11
-183.3892898785
 21
-4.9148290177
 31
0.0
  0
LINE
  5
A2
330
1F
100
AcDbEntity
  8
0
  6
Continuous
 62
     1
370
    25
100
AcDbLine
 10
-128.3600112574
 20
197.7340714316
 30
0.0
 11
-128.3600112574
 21
17.4362645726
 31
0.0
  0
LINE
  5
A3
330
1F
100
AcDbEntity
  8
0
  6
Continuous
 62
     1
370
    25
100
AcDbLine
 10
-127.6027454214
 20
197.5851715784
 30
0.0
 11
-127.6027454214
 21
17.5851644258
 31
0.0
  0
ARC
  5
A4
330
1F
100
AcDbEntity
  8
0
  6
Continuous
 62
     7
370
    25
100
AcDbCircle
 10
458.9792661618
 20
-2.9148319979
 30
0.0
 40
2.000000000000035
100
AcDbArc
 50
247.7509763428
 51
270.0
  0
ARC
  5
A5
330
1F
100
AcDbEntity
  8
0
  6
Continuous
 62
     7
370
    25
100
AcDbCircle
 10
458.9792661618
 20
218.0851680021
 30
0.0
 40
2.000000000000028
100
AcDbArc
 50
90.0
 51
112.2490236572
  0
LINE
  5
A6
330
1F
100
AcDbEntity
  8
0
  6
Continuous
 62
     7
370
    25
100
AcDbLine
 10
458.979265902
 20
-4.9148290177
 30
0.0
 11
578.5859861857
 21
-4.9148290177
 31
0.0
  0
LINE
  5
A7
330
1F
100
AcDbEntity
  8
0
  6
Continuous
 62
     7
370
    25
100
AcDbLine
 10
578.5859861857
 20
220.0851650219
 30
0.0
 11
458.979265902
 21
220.0851650219
 31
0.0
  0
LINE
  5
A8
330
1F
100
AcDbEntity
  8
0
  6
Continuous
 62
     7
370
    25
100
AcDbLine
 10
458.222000066
 20
219.9362651687
 30
0.0
 11
403.949987281
 21
197.7340714316
 31
0.0
  0
LINE
  5
A9
330
1F
100
AcDbEntity
  8
0
  6
Continuous
 62
     7
370
    25
100
AcDbLine
 10
403.949987281
 20
17.4362645726
 30
0.0
 11
458.222000066
 21
-4.7659291644
 31
0.0
  0
ARC
  5
AA
330
1F
100
AcDbEntity
  8
0
  6
Continuous
 62
     7
370
    25
100
AcDbCircle
 10
403.1927200961
 20
15.5851680021
 30
0.0
 40
1.999999999999989
100
AcDbArc
 50
67.7509763428
 51
90.0
  0
ARC
  5
AB
330
1F
100
AcDbEntity
  8
0
  6
Continuous
 62
     7
370
    25
100
AcDbCircle
 10
403.1927200961
 20
199.5851680021
 30
0.0
 40
2.0
100
AcDbArc
 50
270.0
 51
292.2490236572
  0
LINE
  5
AC
330
1F
100
AcDbEntity
  8
0
  6
Continuous
 62
     7
370
    25
100
AcDbLine
 10
298.5859998947
 20
17.5851644258
 30
0.0
 11
403.192721445
 21
17.5851644258
 31
0.0
  0
LINE
  5
AD
330
1F
100
AcDbEntity
  8
0
  6
Continuous
 62
     7
370
    25
100
AcDbLine
 10
403.192721445
 20
197.5851715784
 30
0.0
 11
298.5859998947
 21
197.5851715784
 31
0.0
  0
LINE
  5
AE
330
1F
100
AcDbEntity
  8
0
  6
Continuous
 62
     7
370
    25
100
AcDbLine
 10
578.5859861857
 20
107.5851680021
 30
0.0
 11
578.5859861857
 21
220.0851650219
 31
0.0
  0
LINE
  5
AF
330
1F
100
AcDbEntity
  8
0
  6
Continuous
 62
     7
370
    25
100
AcDbLine
 10
578.5859861857
 20
-4.9148290177
 30
0.0
 11
578.5859861857
 21
107.5851680021
 31
0.0
  0
LINE
  5
B0
330
1F
100
AcDbEntity
  8
0
  6
Continuous
 62
     7
370
    25
100
AcDbLine
 10
298.5859998947
 20
107.5851680021
 30
0.0
 11
298.5859998947
 21
197.5851715784
 31
0.0
  0
LINE
  5
B1
330
1F
100
AcDbEntity
  8
0
  6
Continuous
 62
     7
370
    25
100
AcDbLine
 10
298.5859998947
 20
17.5851644258
 30
0.0
 11
298.5859998947
 21
107.5851680021
 31
0.0
  0
LINE
  5
B2
330
1F
100
AcDbEntity
  8
0
  6
Continuous
 62
     1
370
    25
100
AcDbLine
 10
458.222000066
 20
107.5851680021
 30
0.0
 11
458.222000066
 21
219.9362651687
 31
0.0
  0
LINE
  5
B3
330
1F
100
AcDbEntity
  8
0
  6
Continuous
 62
     1
370
    25
100
AcDbLine
 10
458.222000066
 20
-4.7659291644
 30
0.0
 11
458.222000066
 21
107.5851680021
 31
0.0
  0
LINE
  5
B4
330
1F
100
AcDbEntity
  8
0
  6
Continuous
 62
     1
370
    25
100
AcDbLine
 10
458.979265902
 20
107.5851680021
 30
0.0
 11
458.979265902
 21
220.0851650219
 31
0.0
  0
LINE
  5
B5
330
1F
100
AcDbEntity
  8
0
  6
Continuous
 62
     1
370
    25
100
AcDbLine
 10
458.979265902
 20
-4.9148290177
 30
0.0
 11
458.979265902
 21
107.5851680021
 31
0.0
  0
LINE
  5
B6
330
1F
100
AcDbEntity
  8
0
  6
Continuous
 62
     1
370
    25
100
AcDbLine
 10
403.949987281
 20
107.5851680021
 30
0.0
 11
403.949987281
 21
197.7340714316
 31
0.0
  0
LINE
  5
B7
330
1F
100
AcDbEntity
  8
0
  6
Continuous
 62
     1
370
    25
100
AcDbLine
 10
403.949987281
 20
17.4362645726
 30
0.0
 11
403.949987281
 21
107.5851680021
 31
0.0
  0
LINE
  5
B8
330
1F
100
AcDbEntity
  8
0
  6
Continuous
 62
     1
370
    25
100
AcDbLine
 10
403.192721445
 20
107.5851680021
 30
0.0
 11
403.192721445
 21
197.5851715784
 31
0.0
  0
LINE
  5
B9
330
1F
100
AcDbEntity
  8
0
  6
Continuous
 62
     1
370
    25
100
AcDbLine
 10
403.192721445
 20
17.5851644258
 30
0.0
 11
403.192721445
 21
107.5851680021
 31
0.0
  0
ARC
  5
BA
330
1F
100
AcDbEntity
  8
0
  6
Continuous
 62
     7
370
    25
100
AcDbCircle
 10
249.895004093
 20
393.3152607863
 30
0.0
 40
2.000000000000066
100
AcDbArc
 50
337.7509763428
 51
0.0
  0
ARC
  5
BB
330
1F
100
AcDbEntity
  8
0
  6
Continuous
 62
     7
370
    25
100
AcDbCircle
 10
28.895004093
 20
393.3152607863
 30
0.0
 40
2.000000000000033
100
AcDbArc
 50
180.0
 51
202.2490236572
  0
LINE
  5
BC
330
1F
100
AcDbEntity
  8
0
  6
Continuous
 62
     7
370
    25
100
AcDbLine
 10
251.8950011128
 20
393.3152605265
 30
0.0
 11
251.8950011128
 21
512.9219808102
 31
0.0
  0
LINE
  5
BD
330
1F
100
AcDbEntity
  8
0
  6
Continuous
 62
     7
370
    25
100
AcDbLine
 10
26.8950070733
 20
512.9219808102
 30
0.0
 11
26.8950070733
 21
393.3152605265
 31
0.0
  0
LINE
  5
BE
330
1F
100
AcDbEntity
  8
0
  6
Continuous
 62
     7
370
    25
100
AcDbLine
 10
27.0439069265
 20
392.5579946905
 30
0.0
 11
49.2461006635
 21
338.2859819055
 31
0.0
  0
LINE
  5
BF
330
1F
100
AcDbEntity
  8
0
  6
Continuous
 62
     7
370
    25
100
AcDbLine
 10
229.5439075226
 20
338.2859819055
 30
0.0
 11
251.7461012596
 21
392.5579946905
 31
0.0
  0
ARC
  5
C0
330
1F
100
AcDbEntity
  8
0
  6
Continuous
 62
     7
370
    25
100
AcDbCircle
 10
231.395004093
 20
337.5287147205
 30
0.0
 40
1.999999999999972
100
AcDbArc
 50
157.7509763428
 51
180.0
  0
ARC
  5
C1
330
1F
100
AcDbEntity
  8
0
  6
Continuous
 62
     7
370
    25
100
AcDbCircle
 10
47.395004093
 20
337.5287147205
 30
0.0
 40
1.999999999999986
100
AcDbArc
 50
0.0
 51
22.2490236572
  0
LINE
  5
C2
330
1F
100
AcDbEntity
  8
0
  6
Continuous
 62
     7
370
    25
100
AcDbLine
 10
229.3950076693
 20
232.9219945192
 30
0.0
 11
229.3950076693
 21
337.5287160695
 31
0.0
  0
LINE
  5
C3
330
1F
100
AcDbEntity
  8
0
  6
Continuous
 62
     7
370
    25
100
AcDbLine
 10
49.3950005168
 20
337.5287160695
 30
0.0
 11
49.3950005168
 21
232.9219945192
 31
0.0
  0
LINE
  5
C4
330
1F
100
AcDbEntity
  8
0
  6
Continuous
 62
     7
370
    25
100
AcDbLine
 10
251.8950011128
 20
512.9219808102
 30
0.0
 11
26.8950070733
 21
512.9219808102
 31
0.0
  0
LINE
  5
C5
330
1F
100
AcDbEntity
  8
0
  6
Continuous
 62
     7
370
    25
100
AcDbLine
 10
229.3950076693
 20
232.9219945192
 30
0.0
 11
49.3950005168
 21
232.9219945192
 31
0.0
  0
LINE
  5
C6
330
1F
100
AcDbEntity
  8
0
  6
Continuous
 62
     1
370
    25
100
AcDbLine
 10
251.7461012596
 20
392.5579946905
 30
0.0
 11
27.0439069265
 21
392.5579946905
 31
0.0
  0
LINE
  5
C7
330
1F
100
AcDbEntity
  8
0
  6
Continuous
 62
     1
370
    25
100
AcDbLine
 10
251.8950011128
 20
393.3152605265
 30
0.0
 11
26.8950070733
 21
393.3152605265
 31
0.0
  0
LINE
  5
C8
330
1F
100
AcDbEntity
  8
0
  6
Continuous
 62
     1
370
    25
100
AcDbLine
 10
229.5439075226
 20
338.2859819055
 30
0.0
 11
49.2461006635
 21
338.2859819055
 31
0.0
  0
LINE
  5
C9
330
1F
100
AcDbEntity
  8
0
  6
Continuous
 62
     1
370
    25
100
AcDbLine
 10
229.3950076693
 20
337.5287160695
 30
0.0
 11
49.3950005168
 21
337.5287160695
 31
0.0
  0
ARC
  5
CA
330
1F
100
AcDbEntity
  8
0
  6
Continuous
 62
     7
370
    25
100
AcDbCircle
 10
28.895004093
 20
-199.3405441316
 30
0.0
 40
2.000000000000023
100
AcDbArc
 50
157.7509763428
 51
180.0
  0
ARC
  5
CB
330
1F
100
AcDbEntity
  8
0
  6
Continuous
 62
     7
370
    25
100
AcDbCircle
 10
249.895004093
 20
-199.3405441316
 30
0.0
 40
2.000000000000056
100
AcDbArc
 50
0.0
 51
22.2490236572
  0
LINE
  5
CC
330
1F
100
AcDbEntity
  8
0
  6
Continuous
 62
     7
370
    25
100
AcDbLine
 10
26.8950070733
 20
-199.3405438718
 30
0.0
 11
26.8950070733
 21
-318.9472641554
 31
0.0
  0
LINE
  5
CD
330
1F
100
AcDbEntity
  8
0
  6
Continuous
 62
     7
370
    25
100
AcDbLine
 10
251.8950011128
 20
-318.9472641554
 30
0.0
 11
251.8950011128
 21
-199.3405438718
 31
0.0
  0
LINE
  5
CE
330
1F
100
AcDbEntity
  8
0
  6
Continuous
 62
     7
370
    25
100
AcDbLine
 10
251.7461012596
 20
-198.5832780358
 30
0.0
 11
229.5439075226
 21
-144.3112652507
 31
0.0
  0
LINE
  5
CF
330
1F
100
AcDbEntity
  8
0
  6
Continuous
 62
     7
370
    25
100
AcDbLine
 10
49.2461006635
 20
-144.3112652507
 30
0.0
 11
27.0439069265
 21
-198.5832780358
 31
0.0
  0
ARC
  5
D0
330
1F
100
AcDbEntity
  8
0
  6
Continuous
 62
     7
370
    25
100
AcDbCircle
 10
47.395004093
 20
-143.5539980658
 30
0.0
 40
1.999999999999986
100
AcDbArc
 50
337.7509763428
 51
0.0
  0
ARC
  5
D1
330
1F
100
AcDbEntity
  8
0
  6
Continuous
 62
     7
370
    25
100
AcDbCircle
 10
231.395004093
 20
-143.5539980658
 30
0.0
 40
1.999999999999972
100
AcDbArc
 50
180.0
 51
202.2490236572
  0
LINE
  5
D2
330
1F
100
AcDbEntity
  8
0
  6
Continuous
 62
     7
370
    25
100
AcDbLine
 10
49.3950005168
 20
-38.9472778645
 30
0.0
 11
49.3950005168
 21
-143.5539994147
 31
0.0
  0
LINE
  5
D3
330
1F
100
AcDbEntity
  8
0
  6
Continuous
 62
     7
370
    25
100
AcDbLine
 10
229.3950076693
 20
-143.5539994147
 30
0.0
 11
229.3950076693
 21
-38.9472778645
 31
0.0
  0
LINE
  5
D4
330
1F
100
AcDbEntity
  8
0
  6
Continuous
 62
     7
370
    25
100
AcDbLine
 10
26.8950070733
 20
-318.9472641554
 30
0.0
 11
251.8950011128
 21
-318.9472641554
 31
0.0
  0
LINE
  5
D5
330
1F
100
AcDbEntity
  8
0
  6
Continuous
 62
     7
370
    25
100
AcDbLine
 10
49.3950005168
 20
-38.9472778645
 30
0.0
 11
229.3950076693
 21
-38.9472778645
 31
0.0
  0
LINE
  5
D6
330
1F
100
AcDbEntity
  8
0
  6
Continuous
 62
     1
370
    25
100
AcDbLine
 10
27.0439069265
 20
-198.5832780358
 30
0.0
 11
251.7461012596
 21
-198.5832780358
 31
0.0
  0
LINE
  5
D7
330
1F
100
AcDbEntity
  8
0
  6
Continuous
 62
     1
370
    25
100
AcDbLine
 10
26.8950070733
 20
-199.3405438718
 30
0.0
 11
251.8950011128
 21
-199.3405438718
 31
0.0
  0
LINE
  5
D8
330
1F
100
AcDbEntity
  8
0
  6
Continuous
 62
     1
370
    25
100
AcDbLine
 10
49.2461006635
 20
-144.3112652507
 30
0.0
 11
229.5439075226
 21
-144.3112652507
 31
0.0
  0
LINE
  5
D9
330
1F
100
AcDbEntity
  8
0
  6
Continuous
 62
     1
370
    25
100
AcDbLine
 10
49.3950005168
 20
-143.5539994147
 30
0.0
 11
229.3950076693
 21
-143.5539994147
 31
0.0
  0
LINE
  5
DA
330
1F
100
AcDbEntity
  8
0
  6
Continuous
 62
     7
370
    25
100
AcDbLine
 10
504.6575324866
 20
-69.4184373268
 30
0.0
 11
420.0828094985
 21
-20.5944889928
 31
0.0
  0
LINE
  5
DB
330
1F
100
AcDbEntity
  8
0
  6
Continuous
 62
     7
370
    25
100
AcDbLine
 10
307.591954129
 20
-215.4554879251
 30
0.0
 11
392.166677117
 21
-264.2794362591
 31
0.0
  0
SPLINE
  5
DC
330
1F
100
AcDbEntity
  8
0
  6
Continuous
 62
     7
370
    25
100
AcDbSpline
210
0.0
220
0.0
230
1.0
 70
     8
 71
     3
 72
     9
 73
     5
 74
     0
 42
0.000000001
 43
0.00000001
 40
0.0
 40
0.0
 40
0.0
 40
0.0
 40
0.5390121719289672
 40
1.0
 40
1.0
 40
1.0
 40
1.0
 10
514.000286299166
 20
-76.936388196926
 30
0.0
 10
513.3582435919435
 20
-76.2513339275834
 30
0.0
 10
512.1670966370896
 20
-74.98038995819032
 30
0.0
 10
510.8550184682087
 20
-73.87808149567748
 30
0.0
 10
510.2501664028769
 20
-73.36993071167939
 30
0.0
  0
SPLINE
  5
DD
330
1F
100
AcDbEntity
  8
0
  6
Continuous
 62
     7
370
    25
100
AcDbSpline
210
0.0
220
0.0
230
1.0
 70
     8
 71
     3
 72
    10
 73
     6
 74
     0
 42
0.000000001
 43
0.00000001
 40
0.0
 40
0.0
 40
0.0
 40
0.0
 40
0.0351703823747587
 40
0.539030443038007
 40
1.0
 40
1.0
 40
1.0
 40
1.0
 10
398.3149144980187
 20
-267.1388433137002
 30
0.0
 10
398.3839317093044
 20
-267.1669986075919
 30
0.0
 10
399.4417074701756
 20
-267.5985139769341
 30
0.0
 10
401.5005106135502
 20
-268.2043010112779
 30
0.0
 10
403.5429679073106
 20
-268.6504421530962
 30
0.0
 10
404.5187988899207
 20
-268.8635963522725
 30
0.0
  0
LINE
  5
DE
330
1F
100
AcDbEntity
  8
0
  6
Continuous
 62
     7
370
    25
100
AcDbLine
 10
411.4310479989
 20
-269.6814154933
 30
0.0
 11
457.2209607767
 21
-271.5753883072
 31
0.0
  0
LINE
  5
DF
330
1F
100
AcDbEntity
  8
0
  6
Continuous
 62
     7
370
    25
100
AcDbLine
 10
543.5081010001
 20
-122.1054799795
 30
0.0
 11
518.969287786
 21
-83.3995413289
 31
0.0
  0
LINE
  5
E0
330
1F
100
AcDbEntity
  8
0
  6
Continuous
 62
     7
370
    25
100
AcDbLine
 10
606.8236151074
 20
-154.377720162
 30
0.0
 11
539.2292791823
 21
-115.3563406259
 31
0.0
  0
LINE
  5
E1
330
1F
100
AcDbEntity
  8
0
  6
Continuous
 62
     7
370
    25
100
AcDbLine
 10
449.236590672
 20
-271.2451373379
 30
0.0
 11
516.8309265971
 21
-310.266516874
 31
0.0
  0
LWPOLYLINE
  5
E2
330
1F
100
AcDbEntity
  8
0
  6
Continuous
 62
     7
370
    25
100
AcDbPolyline
 90
      124
 70
   128
 43
0.0
 10
284.2878710376
 20
-163.9479435324
 10
284.3916365787
 20
-159.197572008
 10
284.702669784
 20
-154.3397840162
 10
285.2201540583
 20
-149.3872563969
 10
285.942745971
 20
-144.3529062467
 10
286.8685541821
 20
-139.2498688636
 10
287.9951657846
 20
-134.0914597264
 10
289.3196357674
 20
-128.8911372311
 10
290.8385186257
 20
-123.6624646705
 10
292.5478472873
 20
-118.4190843765
 10
294.443164723
 20
-113.1746720957
 10
296.5195186782
 20
-107.9429187372
 10
298.7714985511
 20
-102.7374664976
 10
301.1932301248
 20
-97.5718966929
 10
303.7783913719
 20
-92.4596871742
 10
306.5202387967
 20
-87.4141788698
 10
309.41162324
 20
-82.4485271167
 10
312.4449951476
 20
-77.5756864525
 10
315.6124467171
 20
-72.8083802001
 10
318.9057066293
 20
-68.1590365891
 10
322.3161927323
 20
-63.6397887598
 10
325.8350041385
 20
-59.2624184893
 10
329.4529554692
 20
-55.0383607566
 10
333.1606137327
 20
-50.9786277001
 10
336.9483035931
 20
-47.0938055763
 10
340.8061442488
 20
-43.3940395541
 10
344.7240705053
 20
-39.8889728792
 10
348.691861752
 20
-36.587760566
 10
352.6991656692
 20
-33.4990009573
 10
356.7355278628
 20
-30.630767287
 10
360.7904178768
 20
-27.9905318259
 10
364.8532573462
 20
-25.5851861319
 10
368.913446174
 20
-23.4210076871
 10
372.9603924949
 20
-21.5036365161
 10
376.9835370417
 20
-19.8380793715
 10
380.9723859076
 20
-18.4286786523
 10
384.9165314552
 20
-17.2791185851
 10
388.805683268
 20
-16.392389105
 10
392.6296958093
 20
-15.7708063902
 10
396.3785921299
 20
-15.4159991768
 10
400.0425941609
 20
-15.3288791025
 10
403.6121372018
 20
-15.5096870972
 10
407.0779147017
 20
-15.9579431959
 10
410.4308808932
 20
-16.6724876045
 10
413.6622955736
 20
-17.6514365966
 10
416.7637188365
 20
-18.8922585598
 10
419.7270637553
 20
-20.391700996
 10
422.5445963833
 20
-22.1458635258
 10
425.2089726322
 20
-24.1501583478
 10
427.7132330036
 20
-26.39936195
 10
430.0508500044
 20
-28.88760903
 10
432.2157228781
 20
-31.6084077041
 10
434.2022092156
 20
-34.5546516776
 10
436.005119686
 20
-37.7186628303
 10
437.6197496474
 20
-41.0921820937
 10
439.0418896832
 20
-44.6664150799
 10
440.2678361393
 20
-48.4320259989
 10
441.2943805867
 20
-52.3792000157
 10
442.1188467005
 20
-56.4976371697
 10
442.7390849916
 20
-60.776592679
 10
443.1534780745
 20
-65.2049020361
 10
443.3609459363
 20
-69.7710123776
 10
443.3609459363
 20
-74.4630117619
 10
443.1534780745
 20
-79.2686593979
 10
442.7390849916
 20
-84.1754168245
 10
442.1188467005
 20
-89.1704842218
 10
441.2943805867
 20
-94.2408296889
 10
440.2678361393
 20
-99.3732266965
 10
439.0418896832
 20
-104.554285265
 10
437.6197496474
 20
-109.7704861864
 10
436.005119686
 20
-115.0082175223
 10
434.2022092156
 20
-120.2538247961
 10
432.2157228781
 20
-125.4936170753
 10
430.0508500044
 20
-130.7139247659
 10
427.7132330036
 20
-135.9011269861
 10
425.2089726322
 20
-141.0416880688
 10
422.5445963833
 20
-146.1222062286
 10
419.7270637553
 20
-151.1294226874
 10
416.7637188365
 20
-156.0502703402
 10
413.6622955736
 20
-160.8719193827
 10
410.4308808932
 20
-165.5817803501
 10
407.0779147017
 20
-170.1675771214
 10
403.6121372018
 20
-174.6173347472
 10
400.0425941609
 20
-178.9194494124
 10
396.3785921299
 20
-183.0626960373
 10
392.6296958093
 20
-187.0362723833
 10
388.805683268
 20
-190.8298005706
 10
384.9165314552
 20
-194.4333901944
 10
380.9723859076
 20
-197.8376436458
 10
376.9835370417
 20
-201.0336697979
 10
372.9603924949
 20
-204.0131364749
 10
368.913446174
 20
-206.768270069
 10
364.8532573462
 20
-209.2918858622
 10
360.7904178768
 20
-211.5773947719
 10
356.7355278628
 20
-213.6188356688
 10
352.6991656692
 20
-215.4108865902
 10
348.691861752
 20
-216.9488616015
 10
344.7240705053
 20
-218.2287635499
 10
340.8061442488
 20
-219.2472382446
 10
336.9483035931
 20
-220.0016402337
 10
333.1606137327
 20
-220.4899917372
 10
329.4529554692
 20
-220.711029793
 10
325.8350041385
 20
-220.6641697525
 10
322.3161927323
 20
-220.3495326539
 10
318.9057066293
 20
-219.7679482637
 10
315.6124467171
 20
-218.9209216126
 10
312.4449951476
 20
-217.8106770996
 10
309.41162324
 20
-216.4400930923
 10
306.5202387967
 20
-214.8127627593
 10
303.7783913719
 20
-212.9329241083
 10
301.1932301248
 20
-210.8054782331
 10
298.7714985511
 20
-208.4359801873
 10
296.5195186782
 20
-205.8306085647
 10
294.443164723
 20
-202.9961624548
 10
292.5478472873
 20
-199.9400371062
 10
290.8385186257
 20
-196.6702056769
 10
289.3196357674
 20
-193.1951979366
 10
287.9951657846
 20
-189.5240759335
 10
286.8685541821
 20
-185.6664248651
 10
285.942745971
 20
-181.63230289
 10
285.2201540583
 20
-177.4322396039
 10
284.702669784
 20
-173.0771866101
 10
284.3916365787
 20
-168.5785099133
 10
284.2878710376
 20
-163.9479435324
  0
LWPOLYLINE
  5
E3
330
1F
100
AcDbEntity
  8
0
  6
Continuous
 62
     7
370
    25
100
AcDbPolyline
 90
      113
 70
   128
 43
0.0
 10
298.7835578182
 20
-155.5797616758
 10
298.8859009031
 20
-151.308569853
 10
299.1926035197
 20
-146.9326563705
 10
299.7027015588
 20
-142.465790079
 10
300.4145934403
 20
-137.9220211405
 10
301.3260348445
 20
-133.31565137
 10
302.4341597855
 20
-128.6611718796
 10
303.7354858801
 20
-123.9732227739
 10
305.2259143473
 20
-119.2665596903
 10
306.9007510818
 20
-114.5559929637
 10
308.7547329959
 20
-109.8563420009
 10
310.7820280194
 20
-105.1823896535
 10
312.9762561731
 20
-100.5488426749
 10
315.330505374
 20
-95.9702891369
 10
317.8373841183
 20
-91.4611223873
 10
320.4889898721
 20
-87.0355319222
 10
323.2769854619
 20
-82.7074562442
 10
326.1926017089
 20
-78.4904931278
 10
329.226661137
 20
-74.3979224357
 10
332.3696174849
 20
-70.4426224718
 10
335.6115846825
 20
-66.6370350022
 10
338.9423605582
 20
-62.9931272346
 10
342.3514663519
 20
-59.5223690081
 10
345.8281730565
 20
-56.2356871675
 10
349.3615435647
 20
-53.1434168984
 10
352.9404616452
 20
-50.2552849988
 10
356.5536642114
 20
-47.580385168
 10
360.189784785
 20
-45.1271285798
 10
363.8373818138
 20
-42.9032336194
 10
367.4849788425
 20
-40.9157026931
 10
371.1210994161
 20
-39.1707838277
 10
374.7343019823
 20
-37.6739687731
 10
378.3132200628
 20
-36.4299698117
 10
381.846590571
 20
-35.4426973276
 10
385.3232972756
 20
-34.71525905
 10
388.7324030693
 20
-34.2499475088
 10
392.0631789451
 20
-34.0482233068
 10
395.3051461427
 20
-34.110715124
 10
398.4481024906
 20
-34.4372349294
 10
401.4821619186
 20
-35.0267551703
 10
404.3977781657
 20
-35.8774194216
 10
407.1857737554
 20
-36.9865439091
 10
409.8373795092
 20
-38.3506555362
 10
412.3442582536
 20
-39.9654416962
 10
414.6985074544
 20
-41.8258369646
 10
416.8927356082
 20
-43.9259820417
 10
418.9200306317
 20
-46.2592693775
 10
420.7740125458
 20
-48.8183583854
 10
422.4488492802
 20
-51.5951997789
 10
423.9392777474
 20
-54.5810507828
 10
425.240603842
 20
-57.7665207608
 10
426.3487287831
 20
-61.1415864274
 10
427.2601701872
 20
-64.6956283521
 10
427.9720620687
 20
-68.4174644196
 10
428.4821601079
 20
-72.2953840512
 10
428.7888627245
 20
-76.31718623
 10
428.8912058094
 20
-80.4702152421
 10
428.7888627245
 20
-84.7414070649
 10
428.4821601079
 20
-89.1173205474
 10
427.9720620687
 20
-93.5841868389
 10
427.2601701872
 20
-98.1279557774
 10
426.3487287831
 20
-102.7343255478
 10
425.240603842
 20
-107.3888050383
 10
423.9392777474
 20
-112.076754144
 10
422.4488492802
 20
-116.7834172276
 10
420.7740125458
 20
-121.4939839542
 10
418.9200306317
 20
-126.193634917
 10
416.8927356082
 20
-130.8675872644
 10
414.6985074544
 20
-135.5011342429
 10
412.3442582536
 20
-140.079687781
 10
409.8373795092
 20
-144.5888545306
 10
407.1857737554
 20
-149.0144449956
 10
404.3977781657
 20
-153.3425206737
 10
401.4821619186
 20
-157.5594837901
 10
398.4481024906
 20
-161.6520544822
 10
395.3051461427
 20
-165.6073544461
 10
392.0631789451
 20
-169.4129419157
 10
388.7324030693
 20
-173.0568496832
 10
385.3232972756
 20
-176.5276079098
 10
381.846590571
 20
-179.8142897503
 10
378.3132200628
 20
-182.9065600195
 10
374.7343019823
 20
-185.7946919191
 10
371.1210994161
 20
-188.4695917499
 10
367.4849788425
 20
-190.9228483381
 10
363.8373818138
 20
-193.1467432984
 10
360.189784785
 20
-195.1342742248
 10
356.5536642114
 20
-196.8791930902
 10
352.9404616452
 20
-198.3760081448
 10
349.3615435647
 20
-199.6200071062
 10
345.8281730565
 20
-200.6072795903
 10
342.3514663519
 20
-201.3347178678
 10
338.9423605582
 20
-201.8000294091
 10
335.6115846825
 20
-202.0017536111
 10
332.3696174849
 20
-201.9392617939
 10
329.226661137
 20
-201.6127419885
 10
326.1926017089
 20
-201.0232217475
 10
323.2769854619
 20
-200.1725574962
 10
320.4889898721
 20
-199.0634330088
 10
317.8373841183
 20
-197.6993213817
 10
315.330505374
 20
-196.0845352217
 10
312.9762561731
 20
-194.2241399533
 10
310.7820280194
 20
-192.1239948761
 10
308.7547329959
 20
-189.7907075404
 10
306.9007510818
 20
-187.2316185325
 10
305.2259143473
 20
-184.454777139
 10
303.7354858801
 20
-181.4689261351
 10
302.4341597855
 20
-178.2834561571
 10
301.3260348445
 20
-174.9083904904
 10
300.4145934403
 20
-171.3543485658
 10
299.7027015588
 20
-167.6325124983
 10
299.1926035197
 20
-163.7545928667
 10
298.8859009031
 20
-159.7327906879
 10
298.7835578182
 20
-155.5797616758
  0
ARC
  5
E4
330
1F
100
AcDbEntity
  8
0
  6
Continuous
 62
     7
370
    25
100
AcDbCircle
 10
485.6731702286
 20
-102.2619518458
 30
0.0
 40
37.93550390201271
100
AcDbArc
 50
49.9659888183
 51
59.9710274167
  0
ARC
  5
E5
330
1F
100
AcDbEntity
  8
0
  6
Continuous
 62
     7
370
    25
100
AcDbCircle
 10
411.0893961777
 20
-231.4689786859
 30
0.0
 40
37.87605342189794
100
AcDbArc
 50
240.0267348242
 51
249.949166565
  0
ARC
  5
E6
330
1F
100
AcDbEntity
  8
0
  6
Continuous
 62
     7
370
    25
100
AcDbCircle
 10
478.0882388306
 20
-109.670301328
 30
0.0
 40
48.58920406399235
100
AcDbArc
 50
19.4471716085
 51
42.0783303311
  0
ARC
  5
E7
330
1F
100
AcDbEntity
  8
0
  6
Continuous
 62
     7
370
    25
100
AcDbCircle
 10
413.7031601041
 20
-219.8821973917
 30
0.0
 40
49.83241597151642
100
AcDbArc
 50
259.6023631111
 51
280.1321520076
  0
ARC
  5
E8
330
1F
100
AcDbEntity
  8
0
  6
Continuous
 62
     7
370
    25
100
AcDbCircle
 10
508.5805325905
 20
-144.1280184708
 30
0.0
 40
41.29076454371799
100
AcDbArc
 50
23.7128291264
 51
32.2322606967
  0
ARC
  5
E9
330
1F
100
AcDbEntity
  8
0
  6
Continuous
 62
     7
370
    25
100
AcDbCircle
 10
458.8226492366
 20
-229.9190010126
 30
0.0
 40
41.68716838981432
100
AcDbArc
 50
267.7980614612
 51
277.6630997604
  0
LWPOLYLINE
  5
EA
330
1F
100
AcDbEntity
  8
0
  6
Continuous
 62
     7
370
    25
100
AcDbPolyline
 90
       57
 70
   128
 43
0.0
 10
606.8236151074
 20
-154.377720162
 10
608.713190035
 20
-155.5642560792
 10
611.0933437426
 20
-157.3621741472
 10
613.3127967852
 20
-159.404599416
 10
615.3643157099
 20
-161.6848634683
 10
617.2412097045
 20
-164.195531391
 10
618.9373569393
 20
-166.9284139454
 10
620.447220372
 20
-169.8745979866
 10
621.765879358
 20
-173.0244723231
 10
622.8890296506
 20
-176.3677642182
 10
623.8130097421
 20
-179.8935667695
 10
624.534806133
 20
-183.590379214
 10
625.0520638681
 20
-187.446144952
 10
625.363091805
 20
-191.4482888104
 10
625.4668836878
 20
-195.5837520262
 10
625.363091805
 20
-199.839050799
 10
625.0520638681
 20
-204.2002998697
 10
624.534806133
 20
-208.6532786766
 10
623.8130097421
 20
-213.1834594952
 10
622.8890296506
 20
-217.7760667526
 10
621.765879358
 20
-222.4161203731
 10
620.447220372
 20
-227.0884859678
 10
618.9373569393
 20
-231.7779212223
 10
617.2412097045
 20
-236.4691336897
 10
615.3643157099
 20
-241.1468172923
 10
613.3127967852
 20
-245.7957146773
 10
611.0933437426
 20
-250.4006658842
 10
608.713190035
 20
-254.9466509287
 10
606.1801064876
 20
-259.4188354299
 10
603.5023538827
 20
-263.8026375266
 10
600.6886645204
 20
-268.0837598148
 10
597.7482185112
 20
-272.2482334526
 10
594.6906042632
 20
-276.2824744307
 10
591.5257974085
 20
-280.1733261561
 10
588.2641212909
 20
-283.9081005138
 10
584.9162127212
 20
-287.4746098025
 10
581.4929916845
 20
-290.8612207252
 10
578.0056270956
 20
-294.0568924088
 10
574.4654907012
 20
-297.051196932
 10
570.8841313961
 20
-299.834370655
 10
567.2732311015
 20
-302.3973275224
 10
563.6445667335
 20
-304.7317175211
 10
560.009974971
 20
-306.8299226841
 10
556.3813106029
 20
-308.6850993873
 10
552.7704103083
 20
-310.2911992591
 10
549.1890510033
 20
-311.6429749749
 10
545.6489146088
 20
-312.7360249309
 10
542.16155002
 20
-313.5667786968
 10
538.7383289833
 20
-314.1325346546
 10
535.3904204136
 20
-314.4314383228
 10
532.1287442959
 20
-314.4625150521
 10
528.9639374413
 20
-314.2256715434
 10
525.9063231932
 20
-313.7216768326
 10
522.9658771841
 20
-312.9521698931
 10
520.1521878218
 20
-311.9196641938
 10
517.4744352169
 20
-310.6275294468
 10
516.8309265971
 20
-310.266516874
  0
LWPOLYLINE
  5
EB
330
1F
100
AcDbEntity
  8
0
  6
Continuous
 62
     1
370
    25
100
AcDbPolyline
 90
       59
 70
   128
 43
0.0
 10
510.0748881966
 20
-73.2161497996
 10
512.2879559917
 20
-75.223310284
 10
514.6255729924
 20
-77.711557364
 10
516.7904458662
 20
-80.4323560381
 10
518.7769322036
 20
-83.3786000117
 10
520.579842674
 20
-86.5426111644
 10
522.1944726354
 20
-89.9161304277
 10
523.6166126713
 20
-93.4903634139
 10
524.8425591273
 20
-97.255974333
 10
525.8691035747
 20
-101.2031483498
 10
526.6935696886
 20
-105.3215855037
 10
527.3138079796
 20
-109.600541013
 10
527.7282010625
 20
-114.0288503702
 10
527.9356689243
 20
-118.5949607117
 10
527.9356689243
 20
-123.2869600959
 10
527.7282010625
 20
-128.092607732
 10
527.3138079796
 20
-132.9993651586
 10
526.6935696886
 20
-137.9944325558
 10
525.8691035747
 20
-143.0647780229
 10
524.8425591273
 20
-148.1971750305
 10
523.6166126713
 20
-153.3782335991
 10
522.1944726354
 20
-158.5944345204
 10
520.579842674
 20
-163.8321658563
 10
518.7769322036
 20
-169.0777731301
 10
516.7904458662
 20
-174.3175654093
 10
514.6255729924
 20
-179.5378730999
 10
512.2879559917
 20
-184.7250753201
 10
509.7836956203
 20
-189.8656364028
 10
507.1193193714
 20
-194.9461545626
 10
504.3017867434
 20
-199.9533710215
 10
501.3384418246
 20
-204.8742186743
 10
498.2370185617
 20
-209.6958677168
 10
495.0056038813
 20
-214.4057286841
 10
491.6526376898
 20
-218.9915254555
 10
488.1868601899
 20
-223.4412830812
 10
484.6173171489
 20
-227.7433977465
 10
480.953315118
 20
-231.8866443713
 10
477.2044187974
 20
-235.8602207174
 10
473.380406256
 20
-239.6537489046
 10
469.4912544432
 20
-243.2573385284
 10
465.5471088956
 20
-246.6615919799
 10
461.5582600297
 20
-249.8576181319
 10
457.535115483
 20
-252.8370848089
 10
453.4881691621
 20
-255.592218403
 10
449.4279803343
 20
-258.1158341962
 10
445.3651408648
 20
-260.4013431059
 10
441.3102508508
 20
-262.4427840028
 10
437.2738886572
 20
-264.2348349243
 10
433.26658474
 20
-265.7728099356
 10
429.2987934933
 20
-267.052711884
 10
425.3808672368
 20
-268.0711865787
 10
421.5230265812
 20
-268.8255885677
 10
417.7353367207
 20
-269.3139400713
 10
414.0276784572
 20
-269.534978127
 10
410.4097271266
 20
-269.4881180865
 10
406.8909157203
 20
-269.1734809879
 10
403.4804296173
 20
-268.5918965977
 10
400.1871697051
 20
-267.7448699467
 10
398.1034505881
 20
-267.0493193245
  0
ARC
  5
EC
330
1F
100
AcDbEntity
  8
0
  6
Continuous
 62
     1
370
    25
100
AcDbCircle
 10
535.2943694941
 20
-217.0050063815
 30
0.0
 40
153.9471671232849
100
AcDbArc
 50
136.0253912956
 51
163.9799823236
  0
LWPOLYLINE
  5
ED
330
1F
100
AcDbEntity
  8
0
  6
Continuous
 62
     1
370
    25
100
AcDbPolyline
 90
       46
 70
   128
 43
0.0
 10
523.9053739013
 20
-93.4931295885
 10
524.0525401596
 20
-93.8965780869
 10
525.2768586936
 20
-97.6572093422
 10
526.3020439052
 20
-101.5991588514
 10
527.1254247377
 20
-105.7121418637
 10
527.7448411652
 20
-109.9854341287
 10
528.1586863391
 20
-114.4078817864
 10
528.3658802463
 20
-118.9679481333
 10
528.3658802463
 20
-123.6537371973
 10
528.1586863391
 20
-128.4530245376
 10
527.7448411652
 20
-133.3532876625
 10
527.1254247377
 20
-138.3417429121
 10
526.3020439052
 20
-143.4053811983
 10
525.2768586936
 20
-148.5309843579
 10
524.0525401596
 20
-153.705183704
 10
522.6322809268
 20
-158.9144767569
 10
521.0197846496
 20
-164.145281997
 10
519.2192660129
 20
-169.3839419062
 10
517.2354085851
 20
-174.6167990106
 10
515.0734016971
 20
-179.8301958833
 10
512.7388772214
 20
-185.0105329347
 10
510.2379306459
 20
-190.1442897064
 10
507.5770789272
 20
-195.2180887468
 10
504.7632762953
 20
-200.2186743193
 10
501.8038563018
 20
-205.1330097362
 10
498.7065370883
 20
-209.9482743173
 10
495.479400313
 20
-214.6519059741
 10
492.1308727115
 20
-219.2316240216
 10
488.6696839497
 20
-223.6754900114
 10
485.1048613558
 20
-227.9719168572
 10
481.4457114808
 20
-232.1096794789
 10
477.7017779516
 20
-236.0779938875
 10
473.8828256662
 20
-239.8665019735
 10
469.9988210373
 20
-243.4653254989
 10
466.0598964306
 20
-246.8650683744
 10
462.0763277745
 20
-250.0568660878
 10
458.0585082187
 20
-253.0323887434
 10
454.0169184988
 20
-255.7838764205
 10
449.9621034765
 20
-258.3041527174
 10
445.9046419285
 20
-260.5866361074
 10
441.8551187229
 20
-262.6253742523
 10
437.8240986424
 20
-264.4150530309
 10
433.8220999597
 20
-265.9509935413
 10
429.859559947
 20
-267.2291963479
 10
425.946820387
 20
-268.2463255099
 10
422.4696368962
 20
-268.9374577234
  0
LWPOLYLINE
  5
EE
330
1F
100
AcDbEntity
  8
0
  6
Continuous
 62
     1
370
    25
100
AcDbPolyline
 90
       42
 70
   128
 43
0.0
 10
546.3852240036
 20
-127.5228221826
 10
547.3614609189
 20
-129.9163551456
 10
548.4864656728
 20
-133.2651803427
 10
549.4119735876
 20
-136.7968173087
 10
550.1349658953
 20
-140.4997455079
 10
550.6530771041
 20
-144.3618916097
 10
550.9646213399
 20
-148.3706564867
 10
551.0685818101
 20
-152.5129635041
 10
550.9646213399
 20
-156.7753007254
 10
550.6530771041
 20
-161.1437669207
 10
550.1349658953
 20
-165.6041114911
 10
549.4119735876
 20
-170.1417888407
 10
548.4864656728
 20
-174.7419945
 10
547.3614609189
 20
-179.3897225379
 10
546.0406208334
 20
-184.0698187937
 10
544.5282549316
 20
-188.7670135767
 10
542.8293049314
 20
-193.4659855444
 10
540.9493078751
 20
-198.1514073263
 10
538.8943908608
 20
-202.8080002769
 10
536.6712605056
 20
-207.4205709769
 10
534.2871713361
 20
-211.9740751092
 10
531.7498994456
 20
-216.4536630841
 10
529.067713519
 20
-220.844715018
 10
526.2493695641
 20
-225.1329228627
 10
523.3040582282
 20
-229.304281275
 10
520.2413863583
 20
-233.3452016846
 10
517.0713427577
 20
-237.2424894765
 10
513.8042692093
 20
-240.9834398073
 10
510.4508235974
 20
-244.5558528104
 10
507.0219390779
 20
-247.9480693341
 10
503.528804322
 20
-251.1490249328
 10
499.9828108327
 20
-254.1482863641
 10
496.3955266027
 20
-256.9360607118
 10
492.7786513338
 20
-259.5032638236
 10
489.1439835094
 20
-261.8415149846
 10
485.5033782477
 20
-263.9431916667
 10
481.8687104233
 20
-265.8014386508
 10
478.2518351544
 20
-267.4101908368
 10
474.6645509244
 20
-268.7642067005
 10
471.1185574351
 20
-269.8590622063
 10
467.6254226793
 20
-270.69119415
 10
464.3815470197
 20
-271.2338731993
  0
ARC
  5
EF
330
1F
100
AcDbEntity
  8
0
  6
Continuous
 62
     1
370
    25
100
AcDbCircle
 10
537.0043112211
 20
-217.9921289043
 30
0.0
 40
154.1561884172406
100
AcDbArc
 50
137.4565582615
 51
162.5488179617
  0
LWPOLYLINE
  5
F0
330
1F
100
AcDbEntity
  8
0
  6
Continuous
 62
     1
370
    25
100
AcDbPolyline
 90
       49
 70
   128
 43
0.0
 10
542.0537897479
 20
-119.8115485436
 10
543.2730875386
 20
-121.4946433786
 10
544.9692347734
 20
-124.227525933
 10
546.4790982061
 20
-127.1737099742
 10
547.7977571922
 20
-130.3235843107
 10
548.9209074847
 20
-133.6668762058
 10
549.8448875763
 20
-137.1926787571
 10
550.5666839672
 20
-140.8894912016
 10
551.0839417022
 20
-144.7452569396
 10
551.3949696392
 20
-148.747400798
 10
551.498761522
 20
-152.8828640138
 10
551.3949696392
 20
-157.1381627866
 10
551.0839417022
 20
-161.4994118573
 10
550.5666839672
 20
-165.9523906642
 10
549.8448875763
 20
-170.4825714828
 10
548.9209074847
 20
-175.0751787403
 10
547.7977571922
 20
-179.7152323607
 10
546.4790982061
 20
-184.3875979554
 10
544.9692347734
 20
-189.0770332099
 10
543.2730875386
 20
-193.7682456773
 10
541.396193544
 20
-198.4459292799
 10
539.3446746194
 20
-203.0948266649
 10
537.1252215768
 20
-207.6997778718
 10
534.7450678692
 20
-212.2457629163
 10
532.2119843217
 20
-216.7179474175
 10
529.5342317168
 20
-221.1017495142
 10
526.7205423545
 20
-225.3828718024
 10
523.7800963454
 20
-229.5473454402
 10
520.7224820973
 20
-233.5815864183
 10
517.5576752427
 20
-237.4724381438
 10
514.295999125
 20
-241.2072125014
 10
510.9480905553
 20
-244.7737217901
 10
507.5248695186
 20
-248.1603327129
 10
504.0375049298
 20
-251.3560043964
 10
500.4973685353
 20
-254.3503089196
 10
496.9160092303
 20
-257.1334826426
 10
493.3051089357
 20
-259.69643951
 10
489.6764445676
 20
-262.0308295087
 10
486.0418528051
 20
-264.1290346717
 10
482.4131884371
 20
-265.9842113749
 10
478.8022881425
 20
-267.5903112467
 10
475.2209288374
 20
-268.9420869625
 10
471.680792443
 20
-270.0351369185
 10
468.1934278541
 20
-270.8658906844
 10
464.7702068174
 20
-271.4316466422
 10
461.4222982477
 20
-271.7305503104
 10
458.1606221301
 20
-271.7616270397
 10
454.9958152754
 20
-271.524783531
 10
454.5071910555
 20
-271.4631371458
  0
ENDSEC
  0
SECTION
  2
OBJECTS
  0
DICTIONARY
  5
C
330
0
100
AcDbDictionary
281
     1
  3
ACAD_GROUP
350
D
  3
ACAD_LAYOUT
350
1A
  3
ACAD_MLINESTYLE
350
17
  3
ACAD_PLOTSETTINGS
350
19
  3
ACAD_PLOTSTYLENAME
350
E
  3
ACAD_SCALELIST
350
47
  0
DICTIONARY
  5
D
102
{ACAD_REACTORS
330
C
102
}
330
C
100
AcDbDictionary
281
     1
  0
DICTIONARY
  5
1A
102
{ACAD_REACTORS
330
C
102
}
330
C
100
AcDbDictionary
281
     1
  3
Layout1
350
1E
  3
Layout2
350
26
  3
Model
350
22
  0
DICTIONARY
  5
17
102
{ACAD_REACTORS
330
C
102
}
330
C
100
AcDbDictionary
281
     1
  3
Standard
350
18
  0
DICTIONARY
  5
19
102
{ACAD_REACTORS
330
C
102
}
330
C
100
AcDbDictionary
281
     1
  0
ACDBDICTIONARYWDFLT
  5
E
102
{ACAD_REACTORS
330
C
102
}
330
C
100
AcDbDictionary
281
     1
  3
Normal
350
F
100
AcDbDictionaryWithDefault
340
F
  0
DICTIONARY
  5
47
102
{ACAD_REACTORS
330
C
102
}
330
C
100
AcDbDictionary
281
     1
  3
A0
350
48
  3
A1
350
49
  3
A2
350
4A
  3
A3
350
4B
  3
A4
350
4C
  3
A5
350
4D
  3
A6
350
4E
  3
A7
350
4F
  3
A8
350
50
  3
A9
350
51
  3
B0
350
52
  3
B1
350
53
  3
B2
350
54
  3
B3
350
55
  3
B4
350
56
  3
B5
350
57
  3
B6
350
58
  3
B7
350
59
  3
B8
350
5A
  3
B9
350
5B
  3
C0
350
5C
  3
C1
350
5D
  3
C2
350
5E
  3
C3
350
5F
  3
C4
350
60
  3
C5
350
61
  3
C6
350
62
  3
C7
350
63
  3
C8
350
64
  3
C9
350
65
  3
D0
350
66
  3
D1
350
67
  3
D2
350
68
  0
LAYOUT
  5
1E
102
{ACAD_REACTORS
330
1A
102
}
330
1A
100
AcDbPlotSettings
  1

  2
none_device
  4

  6

 40
0.0
 41
0.0
 42
0.0
 43
0.0
 44
0.0
 45
0.0
 46
0.0
 47
0.0
 48
0.0
 49
0.0
140
0.0
141
0.0
142
1.0
143
1.0
 70
   688
 72
     1
 73
     0
 74
     5
  7

 75
    16
147
1.0
148
0.0
149
0.0
100
AcDbLayout
  1
Layout1
 70
     1
 71
     1
 10
0.0
 20
0.0
 11
420.0
 21
297.0
 12
0.0
 22
0.0
 32
0.0
 14
1.0000000000E+20
 24
1.0000000000E+20
 34
1.0000000000E+20
 15
-1.0000000000E+20
 25
-1.0000000000E+20
 35
-1.0000000000E+20
146
0.0
 13
0.0
 23
0.0
 33
0.0
 16
1.0
 26
0.0
 36
0.0
 17
0.0
 27
1.0
 37
0.0
 76
     0
330
1B
  0
LAYOUT
  5
26
102
{ACAD_REACTORS
330
1A
102
}
330
1A
100
AcDbPlotSettings
  1

  2
none_device
  4

  6

 40
0.0
 41
0.0
 42
0.0
 43
0.0
 44
0.0
 45
0.0
 46
0.0
 47
0.0
 48
0.0
 49
0.0
140
0.0
141
0.0
142
1.0
143
1.0
 70
   688
 72
     1
 73
     0
 74
     5
  7

 75
    16
147
1.0
148
0.0
149
0.0
100
AcDbLayout
  1
Layout2
 70
     1
 71
     2
 10
0.0
 20
0.0
 11
0.0
 21
0.0
 12
0.0
 22
0.0
 32
0.0
 14
0.0
 24
0.0
 34
0.0
 15
0.0
 25
0.0
 35
0.0
146
0.0
 13
0.0
 23
0.0
 33
0.0
 16
1.0
 26
0.0
 36
0.0
 17
0.0
 27
1.0
 37
0.0
 76
     0
330
23
  0
LAYOUT
  5
22
102
{ACAD_REACTORS
330
1A
102
}
330
1A
100
AcDbPlotSettings
  1

  2
none_device
  4
Letter_(8.50_x_11.00_Inches)
  6

 40
6.35
 41
6.35
 42
6.35000508
 43
6.35000508
 44
215.9
 45
279.4
 46
0.0
 47
0.0
 48
0.0
 49
0.0
140
0.0
141
0.0
142
1.0
143
1.0
 70
  1712
 72
     1
 73
     0
 74
     0
  7

 75
     0
147
1.0
148
0.0
149
0.0
100
AcDbLayout
  1
Model
 70
     1
 71
     0
 10
0.0
 20
0.0
 11
279.4
 21
215.9
 12
0.0
 22
0.0
 32
0.0
 14
0.0
 24
0.0
 34
0.0
 15
279.4
 25
215.9
 35
0.0
146
0.0
 13
0.0
 23
0.0
 33
0.0
 16
1.0
 26
0.0
 36
0.0
 17
0.0
 27
1.0
 37
0.0
 76
     0
330
1F
331
29
  0
MLINESTYLE
  5
18
102
{ACAD_REACTORS
330
17
102
}
330
17
100
AcDbMlineStyle
  2
Standard
 70
     0
  3

 62
   256
 51
90.0
 52
90.0
 71
     2
 49
0.5
 62
   256
  6
BYLAYER
 49
-0.5
 62
   256
  6
BYLAYER
  0
ACDBPLACEHOLDER
  5
F
102
{ACAD_REACTORS
330
E
102
}
330
E
  0
SCALE
  5
48
102
{ACAD_REACTORS
330
47
102
}
330
47
100
AcDbScale
 70
     0
300
1:1
140
1.0
141
1.0
290
     1
  0
SCALE
  5
49
102
{ACAD_REACTORS
330
47
102
}
330
47
100
AcDbScale
 70
     0
300
1:2
140
1.0
141
2.0
290
     0
  0
SCALE
  5
4A
102
{ACAD_REACTORS
330
47
102
}
330
47
100
AcDbScale
 70
     0
300
1:4
140
1.0
141
4.0
290
     0
  0
SCALE
  5
4B
102
{ACAD_REACTORS
330
47
102
}
330
47
100
AcDbScale
 70
     0
300
1:5
140
1.0
141
5.0
290
     0
  0
SCALE
  5
4C
102
{ACAD_REACTORS
330
47
102
}
330
47
100
AcDbScale
 70
     0
300
1:8
140
1.0
141
8.0
290
     0
  0
SCALE
  5
4D
102
{ACAD_REACTORS
330
47
102
}
330
47
100
AcDbScale
 70
     0
300
1:10
140
1.0
141
10.0
290
     0
  0
SCALE
  5
4E
102
{ACAD_REACTORS
330
47
102
}
330
47
100
AcDbScale
 70
     0
300
1:16
140
1.0
141
16.0
290
     0
  0
SCALE
  5
4F
102
{ACAD_REACTORS
330
47
102
}
330
47
100
AcDbScale
 70
     0
300
1:20
140
1.0
141
20.0
290
     0
  0
SCALE
  5
50
102
{ACAD_REACTORS
330
47
102
}
330
47
100
AcDbScale
 70
     0
300
1:30
140
1.0
141
30.0
290
     0
  0
SCALE
  5
51
102
{ACAD_REACTORS
330
47
102
}
330
47
100
AcDbScale
 70
     0
300
1:40
140
1.0
141
40.0
290
     0
  0
SCALE
  5
52
102
{ACAD_REACTORS
330
47
102
}
330
47
100
AcDbScale
 70
     0
300
1:50
140
1.0
141
50.0
290
     0
  0
SCALE
  5
53
102
{ACAD_REACTORS
330
47
102
}
330
47
100
AcDbScale
 70
     0
300
1:100
140
1.0
141
100.0
290
     0
  0
SCALE
  5
54
102
{ACAD_REACTORS
330
47
102
}
330
47
100
AcDbScale
 70
     0
300
2:1
140
2.0
141
1.0
290
     0
  0
SCALE
  5
55
102
{ACAD_REACTORS
330
47
102
}
330
47
100
AcDbScale
 70
     0
300
4:1
140
4.0
141
1.0
290
     0
  0
SCALE
  5
56
102
{ACAD_REACTORS
330
47
102
}
330
47
100
AcDbScale
 70
     0
300
8:1
140
8.0
141
1.0
290
     0
  0
SCALE
  5
57
102
{ACAD_REACTORS
330
47
102
}
330
47
100
AcDbScale
 70
     0
300
10:1
140
10.0
141
1.0
290
     0
  0
SCALE
  5
58
102
{ACAD_REACTORS
330
47
102
}
330
47
100
AcDbScale
 70
     0
300
100:1
140
100.0
141
1.0
290
     0
  0
SCALE
  5
59
102
{ACAD_REACTORS
330
47
102
}
330
47
100
AcDbScale
 70
     0
300
1/128" = 1'-0"
140
0.0078125
141
12.0
290
     0
  0
SCALE
  5
5A
102
{ACAD_REACTORS
330
47
102
}
330
47
100
AcDbScale
 70
     0
300
1/64" = 1'-0"
140
0.015625
141
12.0
290
     0
  0
SCALE
  5
5B
102
{ACAD_REACTORS
330
47
102
}
330
47
100
AcDbScale
 70
     0
300
1/32" = 1'-0"
140
0.03125
141
12.0
290
     0
  0
SCALE
  5
5C
102
{ACAD_REACTORS
330
47
102
}
330
47
100
AcDbScale
 70
     0
300
1/16" = 1'-0"
140
0.0625
141
12.0
290
     0
  0
SCALE
  5
5D
102
{ACAD_REACTORS
330
47
102
}
330
47
100
AcDbScale
 70
     0
300
3/32" = 1'-0"
140
0.09375
141
12.0
290
     0
  0
SCALE
  5
5E
102
{ACAD_REACTORS
330
47
102
}
330
47
100
AcDbScale
 70
     0
300
1/8" = 1'-0"
140
0.125
141
12.0
290
     0
  0
SCALE
  5
5F
102
{ACAD_REACTORS
330
47
102
}
330
47
100
AcDbScale
 70
     0
300
3/16" = 1'-0"
140
0.1875
141
12.0
290
     0
  0
SCALE
  5
60
102
{ACAD_REACTORS
330
47
102
}
330
47
100
AcDbScale
 70
     0
300
1/4" = 1'-0"
140
0.25
141
12.0
290
     0
  0
SCALE
  5
61
102
{ACAD_REACTORS
330
47
102
}
330
47
100
AcDbScale
 70
     0
300
3/8" = 1'-0"
140
0.375
141
12.0
290
     0
  0
SCALE
  5
62
102
{ACAD_REACTORS
330
47
102
}
330
47
100
AcDbScale
 70
     0
300
1/2" = 1'-0"
140
0.5
141
12.0
290
     0
  0
SCALE
  5
63
102
{ACAD_REACTORS
330
47
102
}
330
47
100
AcDbScale
 70
     0
300
3/4" = 1'-0"
140
0.75
141
12.0
290
     0
  0
SCALE
  5
64
102
{ACAD_REACTORS
330
47
102
}
330
47
100
AcDbScale
 70
     0
300
1" = 1'-0"
140
1.0
141
12.0
290
     0
  0
SCALE
  5
65
102
{ACAD_REACTORS
330
47
102
}
330
47
100
AcDbScale
 70
     0
300
1-1/2" = 1'-0"
140
1.5
141
12.0
290
     0
  0
SCALE
  5
66
102
{ACAD_REACTORS
330
47
102
}
330
47
100
AcDbScale
 70
     0
300
3" = 1'-0"
140
3.0
141
12.0
290
     0
  0
SCALE
  5
67
102
{ACAD_REACTORS
330
47
102
}
330
47
100
AcDbScale
 70
     0
300
6" = 1'-0"
140
6.0
141
12.0
290
     0
  0
SCALE
  5
68
102
{ACAD_REACTORS
330
47
102
}
330
47
100
AcDbScale
 70
     0
300
1'-0" = 1'-0"
140
12.0
141
12.0
290
     0
  0
ENDSEC
  0
EOF
